Sunday, June 10, 2018

Pinyin and Chords - Jay Chou - QI LI XIANG 七里香

|-----------------------0--------------------------------0-------|
|--------------1---1--------3---1---0h1p0----------1--3--0-------|
|--------0-h2--------------------------------0--0--------0-------|
|--0-h2----------------------------------------------------------|
|--------------0---0---------------------------------------------|
|--------------------------------------------0-----------0-------|

|-----------------------0----------------------------------------|
|--------------1---1--------3---1-------1---3--------------------|
|--------0-h2-----------------------2-------0--------------------|
|--0-h2-------------------------------------0--------------------|
|--------------0---0---------------------------------------------|
|----------------------------------------------------------------|

Jay Chou - QI LI XIANG - Capo: 3rd Fret

             Am                   F       
Chuang wai de ma que
      G                                 C
Zai dian xian gan shang duo zui
         Am            F
Ni shuo zhe yi ju
         G                         C
Hen you xia tian de gan jue

         Am                      F
Shou zhong de qian bi
     G                            C
Zai zhi shang lai lai hui hui
                Am     
Wo yong ji hang zi
          F                        G       G
Xing rong ni shi wo de shui

              Am        F
Qiu dao yu de zi wei
                 G                      C
Mao gen ni dou xiang liao jie
       Am     
Chu lian de xiang wei
 F                          G                   C
Jiu zhe yang bei wo men xun hui

                Am                   F
Na wen nuan de yang guang
                 G                             C
Xiang gang zhai de xian yan cao mei
            Am
Ni shuo ni she bu de
      F                              G       G
Chi diao zhe yi zhong gan jue

             Am
Yu xia zheng ye
    F            G             C
Wo de ai yi chu jiu xiang yu shui
            Am
Yuan zi luo ye
         F                       G               C
Gen wo de si nian hou hou yi die
          Am
Ji ju shi fei
    F                             G                       C
Ye wu fa jiang wo de re qing leng que
    F                            G                  C            C
Ni chu xian zai wo shi de mei yi ye

            Am
Yu xia zheng ye
    F            G             C
Wo de ai yi chu jiu xiang yu shui
                   Am
Chuang tai hu die
       F                       G                    C
Xiang shi li fen fei de mei li zhang jie
            Am
Wo jie zhe xie
     F                           G                  C
Ba yong yuan ai ni xie jin shi de jie wei
    F                       G                           C      C
Ni shi wo wei yi xiang yao de liao jie

Instrumental  Am, Em, Am, Em
|-----------------------------------------------------------------|
|--------0----1---3----0--1--0------------------------------------|
|----2---------------------------0---------------2----------------|
|------------------------------------2---0--2---------------------|
|----0-------------------------------------------0----------------|
|-----------------------------------0-----------------------------|
             Am
Yu xia zheng ye
       F                   G             C
Wo de ai yi chu jiu xiang yu shui
            Am
Yuan zi luo ye
         F                           G          C
Gen wo de si nian hou hou yi die
          Am
Ji ju shi fei
     F                        G                     C
Ye wu fa jiang wo de re qing leng que
    F                          G                  C  C
Ni chu xian zai wo shi de mei yi ye
        Am         F
Na bao man de dao sui
         G                 C
Xing fu le zhe ge ji jie
   Am                   F
Er ni de lian jia xiang tian li
            G               C
Shou tou de fan qie       Am          F
Ni tu ran dui wo shuo
             G              C
Qi li xiang de ming zi hen mei
          Am
Wo ci ke que zhi xiang
     F                G    G
Qin wen ni jue qiang de zui

             Am
Yu xia zheng ye
    F                      G             C
Wo de ai yi chu jiu xiang yu shui
            Am
Yuan zi luo ye
     F                          G             C
Gen wo de si nian hou hou yi die
          Am
Ji ju shi fei
    F                           G               C
Ye wu fa jiang wo de re qing leng que
    F                           G             C  C
Ni chu xian zai wo shi de mei yi ye

      Am
Zheng ye
    F                      G             C
Wo de ai yi chu jiu xiang yu shui
                      Am
Chuang tai hu die
       F                       G          C
Xiang shi li fen fei de mei li zhang jie
            Am
Wo jie zhe xie
     F                             G              C
Ba yong yuan ai ni xie jin shi de jie wei
    F              G                C  C
Ni shi wo wei yi xiang yao de liao jie

REPEAT INTRO

No comments: