Sunday, May 17, 2015

Gavotte by F.J. Gossec - Guitar Tab


---7--9--7--------------7----------------|------12----------
--------------9---10--------10--7-------|-------------------
-------------------------------------------|--9--------9------
-------------------------------------------|-------------------
-------------------------------------------|-------------------
-------------------------------------------|-------------------


--------7---------------------------------|--------7-----------
--10-------10---7---9---10---9--------|--7----------------
-------------------------------------9----|-------------------
------------------------------------------|-------------9-----
------------------------------------------|-------------------
------------------------------------------|-------------------
X2

-----------------------------|--------7------------------------
--9-------------------------|--------------------------------
-------9---6---9---6-------|-------------------------------
-------------------------8---|---9---------9--------------------
------------------------------|-------------------------------
------------------------------|-------------------------------
REPEAT FROM BEGINNING

-----------------7--------------------------------------
--7---10---9--------10---9--7---------------7----10---
-------------------------------------9---8----------------
---------------------------------------------------------
---------------------------------------------------------
---------------------------------------------------------


------7--------9--7---------------------------7------------
--9------10----------10---9--7-----------9-----------------
--------------------------------------9----------------------
-----------------------------------------------------------
-----------------------------------------------------------
-----------------------------------------------------------

--9--7--7-------------------------------------------9------
-------------10---10--9----9---7-----7---10----------------
-----------------------------------------------------------
-----------------------------------------------------------
-----------------------------------------------------------
-----------------------------------------------------------

--7------------------------------------------12-----------
------9-------------10--7---------------------------------
-----------8--9--------------6--8-----9----------9--------
----------------------------------------------------------
----------------------------------------------------------
----------------------------------------------------------

|:

----------------------------12--11--12-----------------
---9--9--10--10-----12------------------12-------------
--------------------------------------------------------
--------------------------------------------------------
--------------------------------------------------------
-------------------------------------------------------
                        
-----------------------------------------9-----------------
----------------------9--12--11--12------12---10--9----
---9--9--11--11------------------------------------------
-----------------------------------------------------------
-----------------------------------------------------------
-----------------------------------------------------------

---------------9--------------------------7--------------
----------------------------------------------------------
-------9-------------------------9-----------------------
--11------11------11------9--------9--------9---------
----------------------------------------------------------
----------------------------------------------------------

------------------------------------------------------
10------9----------7------7--9--10--9----7------------
------------------------------------------------------
-----9------9-----------------------------------------
------------------------------------------------------
-------------------------------------------------------
:|


|:

------------------------------11----12-------------
--10---10-----------------------------------------
-------------11------------------------------9-----
----------------------13-----------------9--------
---------------------------------------------------
--------------------------------------------------


---------------------------11----12----------------
--10---10-----------------------------------9-----
--------------11------------------------9---------
-------------------13-----------------------------
--------------------------------------------------
--------------------------------------------------


---------------------9---------------------------------
----------------------------------------------------12-
-------9-----------------------------------------------
--11-----11------------------9---9---9-----------------
---------------12---------------------------11---------
-------------------------------------------------------


-------9------------11--12----------------------------
--10-----10-------------------------------------------
-------------11------------------9--------------------
------------------------------------------------------
------------------------------------------------------
---------------------------------------12------------

:|